Jouer le thème Dark Vador à la guitare : niveau débutant à l’expert

Alors comme ça, jeune padawan, te frotter à l’élite des chevaliers jedi tu veux ? De supporter des phrases à l’envers tu te sens capable ? Alors tu es au bon endroit !

J’ai voulu rassembler dans un topic unique tous les tutos de gratte pour jouer le thème de Dark Vador à la guitare aussi appelé “La marche impériale”. Il y en a pour tous les niveaux : du jeune padawan encore en formation à l’académie au maitre de la force capable de jouer fingerstyle avec une guitare classique.

Niveau débutant : Dark Vador à la guitare électrique

SI vous êtes un Obi One Ken00be de la 6 cordes, vous allez adorer ces quelques riffs faciles et fun. Même 6P0 pourrait jouer ce riff devenu aussi célèbre que la coupe de cheveux de princesse Leia.

e|----------------------------------------------------|
B|----------------------------------------------------|
G|----------------------------------------------------|
D|--------------------------2-2-2-3-------------------|
A|-0--0-0-0---3-0----3-0------------3------3-0--------|
E|----------1------1------------------4--1------------|
 
e|----------------------------------------------------------
B|----------------------------------------------------------
G|----------------------------------------------------------
D|----------------------------------------------------------
A|-12-0-0-12-11-10-9-8-9----6----------------------3-0---3-
E|-----------------------6-----10-9--8-7-8--1--4-1-----1----
 
e|----------------------------------------------------|
B|----------------------------------------------------|
G|----------------------------------------------------|
D|----------------------------------------------------|
A|---5-----3-----12-0-0-12-11-10-9-8---6--------------|
E|-1---3-3---12----------------------6----10-9-8-7-8--|

Niveau expert : Dark Vador à la guitare classique

Là on commence à toucher du lourd. AU dessus de ça, il y a le shred au sabre laser mais ça demande du toucher pour pas couper son manche. (Ca va couper chérie).

Voilà d’abord la version vidéo et visuelle des doigtés (vous voulez pas un verre d’abord ?) dans un style flamenco mais vous pourrez l’adapter à votre sauce à n’en pas douter.

Et donc voilà la tablature que l’auteur a eu l’idée saugrenue de ne proposer qu’au format vidéo mais c’est déjà ça (perso, je l’ai capture en écran par écran pour tout remettre sur un doc word mais je ne le partage pas pour une question de droits d’auteur).

Laisser un commentaire

Votre adresse de messagerie ne sera pas publiée. Les champs obligatoires sont indiqués avec *

Que dirais-tu de recevoir notre newsletter guitare ?

Tutos, bons plans et actu guitare tout chauds.

Inscription réussie ! ROCK'N ROLL et merci !